*Magnify*
SPONSORED LINKS
Creative fun in
the palm of your hand.
Printed from https://www.Writing.Com/view/2187605
Rated: E · Poetry · Nonsense · #2187605
Poetry/Song? No clue, but I'd like to write this into a song at some point.
One minute you're here and the next you're begrudging,
And when you're gone I feel selfless,
You must think I'm self-obsessed.

You're the noble one,
On a pedestal you've redone,
Then you came with all your unstinting,
You don't want to grouse with me.

Save me from the tenacious reality and these,
Dilute, astute thoughts.

Am I selfish?
I think I'm selfish.

Edit: Ended up writing a guitar tab for this.
e|--------------------------------------------------------------
B|--------------------------------------------------------------
G|-----4-----4-----------0-----0-----------4-----4----------
D|-----4-----4-----------0-----0-----------4-----4----------
A|---2-----2-----2-----2-----2-----2-----2-----2-----2-----
E|-3-----3-----3-----3-----3-----3-----0-----0-----0--------

e|----------------------------------------------------------------
B|----------------------------------------------------------------
G|-----0-----0---------------------------------------------------
D|-----0-----0---------------------------------------------------
A|---2-----2-----2-----------------------------------------------
E|-0-----0-----0-------------------------------------------------

© Copyright 2019 Obsessive Muso with no Friends (chronicidiocy at Writing.Com). All rights reserved.
Writing.Com, its affiliates and syndicates have been granted non-exclusive rights to display this work.
Log in to Leave Feedback
Username:
Password:
Not a Member?
Signup right now, for free!
All accounts include:
*Bullet* FREE Email @Writing.Com!
*Bullet* FREE Portfolio Services!
Printed from https://www.Writing.Com/view/2187605